  0
SECTION
  2
HEADER
  9
$ACADVER
  1
AC1009
  9
$INSBASE
 10
0.0
 20
0.0
 30
0.0
  9
$EXTMIN
 10
-723.91132664089673
 20
-500.40782109956848
 30
-0.000000000000013
  9
$EXTMAX
 10
5836.9336465564229
 20
4846.2085912711964
 30
0.0000000000000023
  9
$LIMMIN
 10
0.0
 20
0.0
  9
$LIMMAX
 10
3890.0
 20
2660.0
  9
$ORTHOMODE
 70
     1
  9
$REGENMODE
 70
     1
  9
$FILLMODE
 70
     1
  9
$QTEXTMODE
 70
     0
  9
$MIRRTEXT
 70
     0
  9
$DRAGMODE
 70
     2
  9
$LTSCALE
 40
300.0
  9
$OSMODE
 70
  3071
  9
$ATTMODE
 70
     1
  9
$TEXTSIZE
 40
40.0
  9
$TRACEWID
 40
0.05
  9
$TEXTSTYLE
  7
TITLE3
  9
$CLAYER
  8
0
  9
$CELTYPE
  6
BYLAYER
  9
$CECOLOR
 62
   256
  9
$DIMSCALE
 40
1.0
  9
$DIMASZ
 40
40.0
  9
$DIMEXO
 40
26.666666666666661
  9
$DIMDLI
 40
0.38
  9
$DIMRND
 40
0.0
  9
$DIMDLE
 40
0.0
  9
$DIMEXE
 40
26.666666666666661
  9
$DIMTP
 40
0.0
  9
$DIMTM
 40
0.0
  9
$DIMTXT
 40
30.0
  9
$DIMCEN
 40
0.09
  9
$DIMTSZ
 40
0.0
  9
$DIMTOL
 70
     0
  9
$DIMLIM
 70
     0
  9
$DIMTIH
 70
     0
  9
$DIMTOH
 70
     0
  9
$DIMSE1
 70
     0
  9
$DIMSE2
 70
     0
  9
$DIMTAD
 70
     0
  9
$DIMZIN
 70
     0
  9
$DIMBLK
  1

  9
$DIMASO
 70
     0
  9
$DIMSHO
 70
     0
  9
$DIMPOST
  1

  9
$DIMAPOST
  1

  9
$DIMALT
 70
     0
  9
$DIMALTD
 70
     2
  9
$DIMALTF
 40
25.399999999999999
  9
$DIMLFAC
 40
1.0
  9
$DIMTOFL
 70
     0
  9
$DIMTVP
 40
0.0
  9
$DIMTIX
 70
     0
  9
$DIMSOXD
 70
     0
  9
$DIMSAH
 70
     0
  9
$DIMBLK1
  1

  9
$DIMBLK2
  1

  9
$DIMSTYLE
  2
STANDARD
  9
$DIMCLRD
 70
    52
  9
$DIMCLRE
 70
    52
  9
$DIMCLRT
 70
    50
  9
$DIMTFAC
 40
1.0
  9
$DIMGAP
 40
26.666666666666661
  9
$LUNITS
 70
     2
  9
$LUPREC
 70
     2
  9
$SKETCHINC
 40
0.1
  9
$FILLETRAD
 40
0.0
  9
$AUNITS
 70
     0
  9
$AUPREC
 70
     2
  9
$MENU
  1
\acad12\support\cnc
  9
$ELEVATION
 40
0.0
  9
$PELEVATION
 40
0.0
  9
$THICKNESS
 40
0.0
  9
$LIMCHECK
 70
     0
  9
$BLIPMODE
 70
     0
  9
$CHAMFERA
 40
0.0
  9
$CHAMFERB
 40
0.0
  9
$SKPOLY
 70
     0
  9
$TDCREATE
 40
2451029.6595820598
  9
$TDUPDATE
 40
2454287.4582548612
  9
$TDINDWG
 40
0.9531865509
  9
$TDUSRTIMER
 40
0.9531845949
  9
$USRTIMER
 70
     1
  9
$ANGBASE
 50
0.0
  9
$ANGDIR
 70
     0
  9
$PDMODE
 70
     2
  9
$PDSIZE
 40
5.0
  9
$PLINEWID
 40
0.0
  9
$COORDS
 70
     2
  9
$SPLFRAME
 70
     0
  9
$SPLINETYPE
 70
     6
  9
$SPLINESEGS
 70
     8
  9
$ATTDIA
 70
     0
  9
$ATTREQ
 70
     1
  9
$HANDLING
 70
     1
  9
$HANDSEED
  5
8CE0
  9
$SURFTAB1
 70
     6
  9
$SURFTAB2
 70
     6
  9
$SURFTYPE
 70
     6
  9
$SURFU
 70
     6
  9
$SURFV
 70
     6
  9
$UCSNAME
  2

  9
$UCSORG
 10
0.0
 20
0.0
 30
0.0
  9
$UCSXDIR
 10
1.0
 20
0.0
 30
0.0
  9
$UCSYDIR
 10
0.0
 20
1.0
 30
0.0
  9
$PUCSNAME
  2

  9
$PUCSORG
 10
0.0
 20
0.0
 30
0.0
  9
$PUCSXDIR
 10
1.0
 20
0.0
 30
0.0
  9
$PUCSYDIR
 10
0.0
 20
1.0
 30
0.0
  9
$USERI1
 70
     0
  9
$USERI2
 70
     0
  9
$USERI3
 70
     0
  9
$USERI4
 70
     0
  9
$USERI5
 70
     0
  9
$USERR1
 40
0.0
  9
$USERR2
 40
0.0
  9
$USERR3
 40
0.0
  9
$USERR4
 40
0.0
  9
$USERR5
 40
0.0
  9
$WORLDVIEW
 70
     1
  9
$SHADEDGE
 70
     3
  9
$SHADEDIF
 70
    70
  9
$TILEMODE
 70
     1
  9
$MAXACTVP
 70
    16
  9
$PLIMCHECK
 70
     0
  9
$PEXTMIN
 10
1.0000000000000000E+020
 20
1.0000000000000000E+020
 30
1.0000000000000000E+020
  9
$PEXTMAX
 10
-1.0000000000000000E+020
 20
-1.0000000000000000E+020
 30
-1.0000000000000000E+020
  9
$PLIMMIN
 10
0.0
 20
0.0
  9
$PLIMMAX
 10
12.0
 20
9.0
  9
$UNITMODE
 70
     0
  9
$VISRETAIN
 70
     0
  9
$PLINEGEN
 70
     0
  9
$PSLTSCALE
 70
     0
  0
ENDSEC
  0
SECTION
  2
TABLES
  0
TABLE
  2
VPORT
 70
     1
  0
VPORT
  2
*ACTIVE
 70
     0
 10
0.0
 20
0.0
 11
1.0
 21
1.0
 12
299.89698549193849
 22
-0.2039229966376297
 13
0.0
 23
0.0
 14
25.0
 24
25.0
 15
100.0
 25
100.0
 16
0.0
 26
0.0
 36
1.0
 17
2256.6141744658248
 27
2173.1043080824511
 37
0.0
 40
5376.3749452782067
 41
1.705663881151346
 42
50.0
 43
0.0
 44
0.0
 50
0.0
 51
0.0
 71
     0
 72
   100
 73
     1
 74
     0
 75
     0
 76
     0
 77
     0
 78
     0
  0
ENDTAB
  0
TABLE
  2
LTYPE
 70
    20
  0
LTYPE
  2
CONTINUOUS
 70
     0
  3
Solid line
 72
    65
 73
     0
 40
0.0
  0
LTYPE
  2
HIDDEN
 70
     0
  3
Hidden __ __ __ __ __ __ __ __ __ __ __ __ __ _
 72
    65
 73
     2
 40
0.375
 49
0.25
 49
-0.125
  0
LTYPE
  2
PHANTOM2
 70
     0
  3
Phantom (.5x) ___ _ _ ___ _ _ ___ _ _ ___ _ _
 72
    65
 73
     6
 40
1.25
 49
0.625
 49
-0.125
 49
0.125
 49
-0.125
 49
0.125
 49
-0.125
  0
LTYPE
  2
CENTER
 70
     0
  3
Center ____ _ ____ _ ____ _ ____ _ ____ _ ____
 72
    65
 73
     4
 40
2.0
 49
1.25
 49
-0.25
 49
0.25
 49
-0.25
  0
LTYPE
  2
AMCONSTR
 70
     0
  3
_______________________
 72
    65
 73
     2
 40
9999.0
 49
9999.0
 49
0.0
  0
LTYPE
  2
CENTER2
 70
     0
  3
Center (.5x) ___ _ ___ _ ___ _ ___ _ ___ _ ___
 72
    65
 73
     4
 40
1.125
 49
0.75
 49
-0.125
 49
0.125
 49
-0.125
  0
LTYPE
  2
HIDDEN2
 70
     0
  3
Hidden (.5x) _ _ _ _ _ _ _ _ _ _ _ _ _ _ _ _ _
 72
    65
 73
     2
 40
0.1875
 49
0.125
 49
-0.0625
  0
LTYPE
  2
AMZIGZAG2
 70
     0
  3
/\/-/\/-/\/-/\/-/\/-/\/
 72
    65
 73
     2
 40
0.4401
 49
0.0001
 49
-0.4400000000000003
  0
LTYPE
  2
ACANSTGB
 70
     0
  3
__ . . __ . .
 72
    65
 73
     6
 40
0.35433070866
 49
0.15748031496
 49
-0.03937007874
 49
0.03937007874
 49
-0.03937007874
 49
0.03937007874
 49
-0.03937007874
  0
LTYPE
  2
ACANSTGL
 70
     0
  3
_ _ _ _ _
 72
    65
 73
     2
 40
0.11811023622
 49
0.07874015748
 49
-0.03937007874
  0
LTYPE
  2
ASULTYPE
 70
     0
  3
Solid line
 72
    65
 73
     2
 40
3.0
 49
2.5
 49
0.5
  0
LTYPE
  2
ASVLTYPE
 70
     0
  3
__ __ __ __ __ __ __ __ __ __ __ __ __ __ __ __ __ __ __ __ __
 72
    65
 73
     2
 40
0.75
 49
0.5
 49
-0.25
  0
LTYPE
  2
AM_ISO02W050
 70
     0
  3
__ __ __ __ __ __ __ __ __ __ __ __ __ __ __
 72
    65
 73
     2
 40
7.5
 49
6.0
 49
-1.5
  0
LTYPE
  2
AM_ISO08W050
 70
     0
  3
____ . ____ . ____ . ____ . ____ . ____ . ____
 72
    65
 73
     4
 40
18.0
 49
12.0
 49
-1.5
 49
3.0
 49
-1.5
  0
LTYPE
  2
AM_ISO09W050
 70
     0
  3
_____ . . _____ . . _____ . . ____ .. ____
 72
    65
 73
     6
 40
22.5
 49
12.0
 49
-1.5
 49
3.0
 49
-1.5
 49
3.0
 49
-1.5
  0
LTYPE
  2
AM_ISO08W050X2
 70
     0
  3
__ . __ . __ . __ . __ . __
 72
    65
 73
     4
 40
9.0
 49
6.0
 49
-0.75
 49
1.5
 49
-0.75
  0
LTYPE
  2
AM_ISO02W050X2
 70
     0
  3
 _ _ _ _ _ _ _ _ _ _ _ _
 72
    65
 73
     2
 40
3.75
 49
3.0
 49
-0.75
  0
LTYPE
  2
AMZIGZAG
 70
     0
  3
/\/-/\/-/\/-/\/-/\/-/\/
 72
    65
 73
     2
 40
11.0001
 49
0.0001
 49
-11.0
  0
LTYPE
  2
PHANTOM
 70
     0
  3
Phantom ______  __  __  ______  __  __  ______
 72
    65
 73
     6
 40
2.5
 49
1.25
 49
-0.25
 49
0.25
 49
-0.25
 49
0.25
 49
-0.25
  0
ENDTAB
  0
TABLE
  2
LAYER
 70
     2
  0
LAYER
  2
0
 70
     0
 62
     7
  6
CONTINUOUS
  0
LAYER
  2
DIM
 70
     0
 62
     7
  6
CONTINUOUS
  0
ENDTAB
  0
TABLE
  2
STYLE
 70
     7
  0
STYLE
  2
STANDARD
 70
     0
 40
0.0
 41
1.0
 50
0.0
 71
     0
 42
0.2
  3
txt
  4

  0
STYLE
  2
TITLE3
 70
     0
 40
40.0
 41
1.0
 50
0.0
 71
     0
 42
40.0
  3
SIMPLEX.shx
  4

  0
STYLE
  2
SIMPLEX
 70
     0
 40
40.0
 41
1.0
 50
0.0
 71
     0
 42
25.0
  3
SIMPLEX
  4

  0
STYLE
  2
TITLE5
 70
     0
 40
50.0
 41
1.0
 50
0.0
 71
     0
 42
50.0
  3
SIMPLEX.shx
  4

  0
STYLE
  2
ACANSTS
 70
     0
 40
1.0
 41
1.0
 50
0.0
 71
     0
 42
40.0
  3
romans.shx
  4

  0
STYLE
  2
ACANSGDT
 70
     0
 40
0.0
 41
1.0
 50
0.0
 71
     0
 42
40.0
  3
amgdt.shx
  4

  0
STYLE
  2

 70
     1
 40
0.0
 41
1.0
 50
0.0
 71
     0
 42
40.0
  3
genltshp.shx
  4

  0
ENDTAB
  0
TABLE
  2
VIEW
 70
     0
  0
ENDTAB
  0
TABLE
  2
UCS
 70
     0
  0
ENDTAB
  0
TABLE
  2
APPID
 70
    38
  0
APPID
  2
ACAD
 70
     0
  0
APPID
  2
DCO15
 70
     0
  0
APPID
  2
GENIUS_GENDIM_13
 70
     0
  0
APPID
  2
GENIUS_GENDTOL_13
 70
     0
  0
APPID
  2
GENIUS_GE3DTOL_13
 70
     0
  0
APPID
  2
MCAD_NO_VIS
 70
     0
  0
APPID
  2
ACAD_TEMP_GRAPHIC
 70
     0
  0
APPID
  2
AD_DRAW
 70
     0
  0
APPID
  2
ACATTRIBSERVICES
 70
     0
  0
APPID
  2
ASURF_PCURVE_APPNAME
 70
     0
  0
APPID
  2
AMG_3D2D_5_0
 70
     0
  0
APPID
  2
DESIGNERASSEMBLIES
 70
     0
  0
APPID
  2
ACADM_DIM_EDIT
 70
     0
  0
APPID
  2
AMDT_DM_ADJ
 70
     0
  0
APPID
  2
ACAD_PSEXT
 70
     0
  0
APPID
  2
ACAD_EXEMPT_FROM_CAD_STANDARDS
 70
     0
  0
APPID
  2
AMG_3D2D_5_00
 70
     0
  0
APPID
  2
AMG_3D2D_5_01
 70
     0
  0
APPID
  2
AMG_3D2D_5_02
 70
     0
  0
APPID
  2
AMG_3D2D_5_03
 70
     0
  0
APPID
  2
AMG_3D2D_5_04
 70
     0
  0
APPID
  2
AMG_3D2D_5_05
 70
     0
  0
APPID
  2
AMG_3D2D_5_06
 70
     0
  0
APPID
  2
AMG_3D2D_5_07
 70
     0
  0
APPID
  2
AMG_3D2D_5_08
 70
     0
  0
APPID
  2
AMG_3D2D_5_09
 70
     0
  0
APPID
  2
AMG_3D2D_5_0A
 70
     0
  0
APPID
  2
AMG_3D2D_5_0B
 70
     0
  0
APPID
  2
AMG_3D2D_5_0C
 70
     0
  0
APPID
  2
AMG_3D2D_5_0D
 70
     0
  0
APPID
  2
AMG_3D2D_5_0E
 70
     0
  0
APPID
  2
AMG_3D2D_5_0F
 70
     0
  0
APPID
  2
AMG_3D2D_5_0G
 70
     0
  0
APPID
  2
AMG_3D2D_5_0H
 70
     0
  0
APPID
  2
AMG_3D2D_5_0I
 70
     0
  0
APPID
  2
AMG_3D2D_5_0J
 70
     0
  0
APPID
  2
AMG_3D2D_5_0K
 70
     0
  0
APPID
  2
AMG_3D2D_5_0L
 70
     0
  0
ENDTAB
  0
TABLE
  2
DIMSTYLE
 70
     8
  0
DIMSTYLE
  2
STANDARD
 70
     0
  3

  4

  5

  6

  7

 40
1.0
 41
0.18
 42
0.0625
 43
0.38
 44
0.18
 45
0.0
 46
0.0
 47
0.0
 48
0.0
140
0.18
141
0.09
142
0.0
143
25.399999999999999
144
1.0
145
0.0
146
1.0
147
0.09
 71
     0
 72
     0
 73
     1
 74
     1
 75
     0
 76
     0
 77
     0
 78
     0
170
     0
171
     2
172
     0
173
     0
174
     0
175
     0
176
     0
177
     0
178
     0
  0
DIMSTYLE
  2
AM_ANSI
 70
     0
  3

  4
mm
  5

  6

  7

 40
1.0
 41
0.1
 42
0.05
 43
0.5
 44
0.1
 45
0.0
 46
0.0
 47
0.1
 48
0.1
140
0.12
141
0.0
142
0.0
143
25.399999999999999
144
1.0
145
0.0
146
0.71
147
0.06
 71
     0
 72
     0
 73
     1
 74
     1
 75
     0
 76
     0
 77
     0
 78
     7
170
     0
171
     2
172
     0
173
     0
174
     0
175
     0
176
   256
177
   256
178
     2
  0
DIMSTYLE
  2
AM_ANSI$3
 70
     0
  3

  4
mm
  5

  6

  7

 40
1.0
 41
0.1
 42
0.05
 43
0.5
 44
0.1
 45
0.0
 46
0.0
 47
0.1
 48
0.1
140
0.12
141
0.0
142
0.0
143
25.399999999999999
144
1.0
145
0.0
146
0.71
147
0.06
 71
     0
 72
     0
 73
     1
 74
     1
 75
     0
 76
     0
 77
     0
 78
     7
170
     0
171
     2
172
     0
173
     0
174
     0
175
     0
176
   256
177
   256
178
     2
  0
DIMSTYLE
  2
AM_ANSI$4
 70
     0
  3

  4
mm
  5

  6

  7

 40
1.0
 41
0.1
 42
0.05
 43
0.5
 44
0.1
 45
0.0
 46
0.0
 47
0.1
 48
0.1
140
0.12
141
0.0
142
0.0
143
25.399999999999999
144
1.0
145
0.0
146
0.71
147
0.06
 71
     0
 72
     0
 73
     1
 74
     1
 75
     0
 76
     0
 77
     0
 78
     7
170
     0
171
     2
172
     0
173
     0
174
     0
175
     0
176
   256
177
   256
178
     2
  0
DIMSTYLE
  2
AM_ANSI$7
 70
     0
  3

  4
mm
  5

  6

  7

 40
1.0
 41
0.1
 42
0.05
 43
0.5
 44
0.1
 45
0.0
 46
0.0
 47
0.1
 48
0.1
140
0.24
141
0.0
142
0.0
143
25.399999999999999
144
1.0
145
0.0
146
0.71
147
0.06
 71
     0
 72
     0
 73
     1
 74
     1
 75
     0
 76
     0
 77
     0
 78
     7
170
     0
171
     2
172
     0
173
     0
174
     0
175
     0
176
   256
177
   256
178
     2
  0
DIMSTYLE
  2
AM_ANSI$SF
 70
     0
  3

  4
mm
  5

  6

  7

 40
1.0
 41
0.1
 42
0.05
 43
0.5
 44
0.1
 45
0.0
 46
0.0
 47
0.1
 48
0.1
140
0.12
141
0.0
142
0.0
143
25.399999999999999
144
1.0
145
0.0
146
0.71
147
0.06
 71
     0
 72
     0
 73
     1
 74
     1
 75
     1
 76
     1
 77
     0
 78
     7
170
     0
171
     2
172
     0
173
     0
174
     0
175
     0
176
   256
177
   256
178
     2
  0
DIMSTYLE
  2
AM_ANSI$SH
 70
     0
  3

  4
mm
  5

  6

  7

 40
1.0
 41
0.1
 42
0.05
 43
0.5
 44
0.1
 45
0.0
 46
0.0
 47
0.1
 48
0.1
140
0.12
141
0.0
142
0.0
143
25.399999999999999
144
1.0
145
0.0
146
0.71
147
0.06
 71
     0
 72
     0
 73
     1
 74
     1
 75
     1
 76
     1
 77
     0
 78
     7
170
     0
171
     2
172
     0
173
     1
174
     0
175
     0
176
   256
177
   256
178
     2
  0
ENDTAB
  0
ENDSEC
  0
SECTION
  2
BLOCKS
  0
BLOCK
  8
0
  2
$MODEL_SPACE
 70
     0
 10
0.0
 20
0.0
 30
0.0
  3
$MODEL_SPACE
  1

  0
ENDBLK
  5
8C42
  8
0
  0
BLOCK
 67
     1
  8
0
  2
$PAPER_SPACE
 70
     0
 10
0.0
 20
0.0
 30
0.0
  3
$PAPER_SPACE
  1

  0
ENDBLK
  5
8C3E
 67
     1
  8
0
  0
BLOCK
  8
0
  2
LINES
 70
     0
 10
0.0
 20
0.0
 30
0.0
  3
LINES
  1

  0
ENDBLK
  5
5C9B
  8
0
  0
BLOCK
  8
0
  2
*U3
 70
     1
 10
0.0
 20
0.0
 30
0.0
  3
*U3
  1

  0
TEXT
  5
77B7
  8
0
 62
    50
 10
697.26600916927225
 20
-544.39855900790826
 30
0.0
 40
30.0
  1
1676 O/A
  0
ENDBLK
  5
77B9
  8
0
  0
BLOCK
  8
0
  2
*U4
 70
     1
 10
0.0
 20
0.0
 30
0.0
  3
*U4
  1

  0
TEXT
  5
77BB
  8
0
 62
    50
 10
-187.40065749739361
 20
-465.4633888847456
 30
0.0
 40
30.0
  1
32
  0
ENDBLK
  5
77BD
  8
0
  0
BLOCK
  8
0
  2
*U5
 70
     1
 10
0.0
 20
0.0
 30
0.0
  3
*U5
  1

  0
TEXT
  5
77BF
  8
0
 62
    50
 10
687.26600916927248
 20
-464.55222354983721
 30
0.0
 40
30.0
  1
1612 CTRS
  0
ENDBLK
  5
77C1
  8
0
  0
BLOCK
  8
0
  2
*U6
 70
     1
 10
0.0
 20
0.0
 30
0.0
  3
*U6
  1

  0
TEXT
  5
77C3
  8
0
 62
    50
 10
-97.872357031625214
 20
135.00686529684111
 30
0.0
 40
30.0
  1
1244 O/A
 50
90.0
  0
ENDBLK
  5
77C5
  8
0
  0
BLOCK
  8
0
  2
*U7
 70
     1
 10
0.0
 20
0.0
 30
0.0
  3
*U7
  1

  0
TEXT
  5
77C7
  8
0
 62
    50
 10
1895.725553728764
 20
-464.11973913226387
 30
0.0
 40
30.0
  1
35
  0
ENDBLK
  5
77C9
  8
0
  0
BLOCK
  8
0
  2
*U8
 70
     1
 10
0.0
 20
0.0
 30
0.0
  3
*U8
  1

  0
TEXT
  5
77CB
  8
0
 62
    50
 10
2665.8922203954312
 20
-463.41274681668779
 30
0.0
 40
30.0
  1
1402 CTRS
  0
ENDBLK
  5
77CD
  8
0
  0
BLOCK
  8
0
  2
*U9
 70
     1
 10
0.0
 20
0.0
 30
0.0
  3
*U9
  1

  0
TEXT
  5
77CF
  8
0
 62
    50
 10
2678.3922203954312
 20
-544.60263355348786
 30
0.0
 40
30.0
  1
1472 O/A
  0
ENDBLK
  5
77D1
  8
0
  0
BLOCK
  8
0
  2
*U10
 70
     1
 10
0.0
 20
0.0
 30
0.0
  3
*U10
  1

  0
TEXT
  5
77D3
  8
0
 62
    50
 10
-187.40065749739361
 20
-217.73547747163869
 30
0.0
 40
30.0
  1
54
  0
ENDBLK
  5
77D5
  8
0
  0
BLOCK
  8
0
  2
*U11
 70
     1
 10
0.0
 20
0.0
 30
0.0
  3
*U11
  1

  0
TEXT
  5
77D7
  8
0
 62
    50
 10
787.26410816847704
 20
940.93638754345704
 30
0.0
 40
30.0
  1
1628
  0
ENDBLK
  5
77D9
  8
0
  0
BLOCK
  8
0
  2
GENAXEH
 70
     0
 10
0.0
 20
0.0
 30
0.0
  3
GENAXEH
  1

  0
LINE
  5
7D26
  8
0
 10
-1.0
 20
0.0
 30
0.0
 11
1.0
 21
0.0
 31
0.0
  0
ENDBLK
  5
7D27
  8
0
  0
BLOCK
  8
0
  2
*U13
 70
     1
 10
0.0
 20
0.0
 30
0.0
  3
*U13
  1

  0
TEXT
  5
846C
  8
0
 62
    50
 10
-204.2124961588664
 20
320.6657251940689
 30
0.0
 40
30.0
  1
1335 O/A
 50
90.0
  0
ENDBLK
  5
846E
  8
0
  0
BLOCK
  8
0
  2
*U15
 70
     1
 10
0.0
 20
0.0
 30
0.0
  3
*U15
  1

  0
TEXT
  5
8CD9
  8
0
 62
     7
 10
4240.145106590222
 20
-121.33427480593291
 30
0.0
 40
30.0
  1
306
 50
90.0
  0
ENDBLK
  5
8CDB
  8
0
  0
BLOCK
  8
0
  2
*U16
 70
     1
 10
0.0
 20
0.0
 30
0.0
  3
*U16
  1

  0
TEXT
  5
8CDD
  8
0
 62
     7
 10
3784.8922203954312
 20
1166.8625165920921
 30
0.0
 40
30.0
  1
420
  0
ENDBLK
  5
8CDF
  8
0
  0
ENDSEC
  0
SECTION
  2
ENTITIES
  0
TEXT
  5
5CA6
  8
0
 62
     7
 10
4498.3446524317596
 20
-85.86954075054318
 30
0.0
 40
59.999999998499987
  1
temperzone OPA 330RKTH
  7
TITLE5
 72
     1
 11
5101.2017952738324
 21
-85.86954075054318
 31
0.0
  0
TEXT
  5
5CA7
  8
0
 62
     7
 10
5223.333333218995
 20
-406.66666666899988
 30
0.0
 40
39.999999998999989
  1
OPA330RKTH
 41
1.020100502512572
  7
TITLE3
 72
     5
 11
5609.9999998759986
 21
-406.66666666899988
 31
0.0
  0
TEXT
  5
5CA8
  8
0
 62
     7
 10
4441.2017952903307
 20
-175.72326277672201
 30
0.0
 40
59.999999998499987
  1
FOOT MTD HORIZ DISCHARGE
  7
TITLE5
 72
     1
 11
5101.2017952738324
 21
-175.72326277672201
 31
0.0
  0
INSERT
  5
5CA9
  8
DIM
  2
LINES
 10
331.16901791101679
 20
3587.504837768558
 30
0.0
  0
TEXT
  5
5CAA
  8
0
 62
     7
 10
4615.8550654735809
 20
-353.33333333699989
 30
0.0
 40
39.999999998999989
  1
14-05-07
 41
0.6913580246913722
  7
TITLE3
 72
     5
 11
4829.1883988015852
 21
-353.33333333699989
 31
0.0
  0
LINE
  5
5CCE
  8
0
 62
     7
 10
-81.733990830727066
 20
2293.683298283207
 30
0.0
 11
1592.266009169273
 21
2293.683298283207
 31
0.0
  0
LINE
  5
5CD7
  8
0
 62
     7
 10
1592.266009169273
 20
3757.6832982832102
 30
0.0
 11
1592.266009169273
 21
2293.683298283207
 31
0.0
  0
LINE
  5
5CF1
  8
0
 62
     7
 10
1592.2622071676831
 20
996.16717623193836
 30
0.0
 11
-81.733990830727066
 21
996.16717623193756
 31
0.0
  0
LINE
  5
5CF2
  8
0
 62
     7
 10
-81.733990830727066
 20
996.16717623193756
 30
0.0
 11
-81.733990830727123
 21
-135.8357258438063
 31
0.0
  0
LINE
  5
5CF7
  8
0
 62
     7
 10
1592.262207167684
 20
-135.8357258438063
 30
0.0
 11
1592.2622071676831
 21
996.16717623193836
 31
0.0
  0
LINE
  5
5CF9
  8
0
 62
     7
 10
1651.262207167681
 20
839.16717623193881
 30
0.0
 11
1651.262207167684
 21
67.167176231938967
 31
0.0
  0
LINE
  5
5D0B
  8
0
 62
     7
 10
-135.7339908307269
 20
-135.8357258438063
 30
0.0
 11
1645.2660091692719
 21
-135.8357258438063
 31
0.0
  0
INSERT
  5
5D33
  8
DIM
  2
LINES
 10
254.36135100316409
 20
12950.844675060671
 30
0.0
  0
INSERT
  5
5D34
  8
DIM
  2
LINES
 10
4447.4749797806317
 20
10493.25690705025
 30
0.0
  0
TEXT
  5
5D35
  8
DIM
 10
9638.0424665801456
 20
11898.17011078995
 30
0.0
 40
15.0
  1

  7
TITLE3
 72
     1
 11
9638.0424665801456
 21
11898.17011078995
 31
0.0
  0
TEXT
  5
5D36
  8
DIM
 10
9638.0424665801456
 20
11898.17011078995
 30
0.0
 40
15.0
  1

  7
TITLE3
 72
     1
 11
9638.0424665801456
 21
11898.17011078995
 31
0.0
  0
TEXT
  5
5D37
  8
DIM
 10
14638.04246658014
 20
11898.17011078995
 30
0.0
 40
15.0
  1

  7
TITLE3
 72
     1
 11
14638.04246658014
 21
11898.17011078995
 31
0.0
  0
TEXT
  5
5D38
  8
DIM
 10
14638.04246658014
 20
11898.17011078995
 30
0.0
 40
15.0
  1

  7
TITLE3
 72
     1
 11
14638.04246658014
 21
11898.17011078995
 31
0.0
  0
LINE
  5
5D39
  8
0
 62
     7
 10
377.5866661656172
 20
919.33292138530362
 30
0.0
 11
338.28666616561679
 21
958.63292138530005
 31
0.0
  0
LINE
  5
5D3A
  8
0
 62
     7
 10
298.98666616561712
 20
919.33292138530362
 30
0.0
 11
338.28666616561679
 21
958.63292138530005
 31
0.0
  0
LINE
  5
5D3B
  8
0
 62
     7
 10
323.5866661656172
 20
863.83292138530373
 30
0.0
 11
352.98666616561712
 21
863.83292138530373
 31
0.0
  0
LINE
  5
5D3C
  8
0
 62
     7
 10
352.98666616561712
 20
863.83292138530373
 30
0.0
 11
352.98666616561712
 21
919.33292138530362
 31
0.0
  0
LINE
  5
5D3D
  8
0
 62
     7
 10
352.98666616561712
 20
919.33292138530362
 30
0.0
 11
377.5866661656172
 21
919.33292138530362
 31
0.0
  0
LINE
  5
5D3E
  8
0
 62
     7
 10
323.5866661656172
 20
863.83292138530373
 30
0.0
 11
323.5866661656172
 21
919.33292138530362
 31
0.0
  0
LINE
  5
5D3F
  8
0
 62
     7
 10
323.5866661656172
 20
919.33292138530362
 30
0.0
 11
298.98666616561712
 21
919.33292138530362
 31
0.0
  0
TEXT
  5
5D40
  8
0
 62
     7
 10
4441.5837005335761
 20
-352.22504818653209
 30
0.0
 40
31.999999999999989
  1
Date
  7
SIMPLEX
  0
TEXT
  5
5D41
  8
0
 62
     7
 10
5644.8149231648031
 20
-327.32893063545191
 30
0.0
 40
31.999999999999989
  1
Revision
 41
0.7812095035934779
  7
SIMPLEX
 72
     5
 11
5785.2838320014207
 21
-327.32893063545191
 31
0.0
  0
LINE
  5
5D42
  8
0
 62
     7
 10
5629.3217999868793
 20
-472.21000953557711
 30
0.0
 11
5629.3217999868793
 21
-275.64179238860447
 31
0.0
  0
LINE
  5
5D43
  8
0
 62
     7
 10
4409.1353726095294
 20
2.952971289139378
 30
0.0
 11
4409.1353726095294
 21
-472.21000953557711
 31
0.0
  0
LINE
  5
5D44
  8
0
 62
     7
 10
5205.8849040174591
 20
-472.21000953557711
 30
0.0
 11
5205.8849040174591
 21
-275.64179238860447
 31
0.0
  0
LINE
  5
5D45
  8
0
 62
     7
 10
5205.8849040174564
 20
-375.58320097404851
 30
0.0
 11
4409.1353726095294
 21
-375.58320097404851
 31
0.0
  0
LINE
  5
5D46
  8
0
 62
     7
 10
5798.767286983787
 20
-275.64179238860447
 30
0.0
 11
4409.1353726095294
 21
-275.64179238860447
 31
0.0
  0
LINE
  5
5D47
  8
0
 62
     7
 10
4409.1353726095294
 20
-472.21000953557711
 30
0.0
 11
5798.3706107459848
 21
-472.21000953557711
 31
0.0
  0
LINE
  5
5D48
  8
0
 62
     7
 10
5798.3706107459848
 20
-472.21000953557711
 30
0.0
 11
5798.3706107459848
 21
2.952971289139378
 31
0.0
  0
LINE
  5
5D49
  8
0
 62
     7
 10
5798.3706107459848
 20
2.952971289139378
 30
0.0
 11
4409.1353726095294
 21
2.952971289139378
 31
0.0
  0
TEXT
  5
5D4A
  8
0
 62
     7
 10
4442.6442921374801
 20
-436.10334924618962
 30
0.0
 40
26.666666666666661
  1
Scale
 41
1.3701747965659661
  7
SIMPLEX
 72
     5
 11
4576.616938912819
 21
-436.10334924618962
 31
0.0
  0
TEXT
  5
5D4B
  8
0
 62
     7
 10
5283.1454981343959
 20
-328.14209132438708
 30
0.0
 40
26.666666666666661
  1
Drawing No.
  7
SIMPLEX
 72
     2
 11
5515.5264505153482
 21
-328.14209132438708
 31
0.0
  0
LINE
  5
5D4C
  8
0
 62
     7
 10
-723.4383732445142
 20
-500.0
 30
0.0
 11
5836.6666666666661
 21
-500.0
 31
0.0
  0
LINE
  5
5D4D
  8
0
 62
     7
 10
5836.6666666666661
 20
-500.0
 30
0.0
 11
5836.6666666666624
 21
4846.2085663729331
 31
0.0
  0
LINE
  5
5D4E
  8
0
 62
     7
 10
5836.6666666666624
 20
4846.2085663729331
 30
0.0
 11
-723.43837324451522
 21
4846.2085663729304
 31
0.0
  0
LINE
  5
5D4F
  8
0
 62
     7
 10
-723.43837324451522
 20
4846.2085663729304
 30
0.0
 11
-723.4383732445142
 21
-500.0
 31
0.0
  0
TEXT
  5
5D51
  8
0
 62
     7
 10
4647.8265604843491
 20
-439.38405101150232
 30
0.0
 40
40.0
  1
1:20
  7
TITLE3
  0
LINE
  5
5D54
  8
0
  6
PHANTOM2
 62
     7
 10
-581.73757885305361
 20
3756.5071867769329
 30
0.0
 11
-581.73757885305361
 21
2293.683298283207
 31
0.0
  0
LINE
  5
5D55
  8
0
  6
PHANTOM2
 62
     7
 10
-82.344548867999706
 20
1293.683298283207
 30
0.0
 11
1592.266009169273
 21
1293.683298283207
 31
0.0
  0
LINE
  5
5D56
  8
0
  6
PHANTOM2
 62
     7
 10
-111.5963295676449
 20
3756.5071867769329
 30
0.0
 11
-581.73757885305361
 21
3756.5071867769329
 31
0.0
  0
LINE
  5
5D57
  8
0
  6
PHANTOM2
 62
     7
 10
-111.5963295676449
 20
2293.683298283207
 30
0.0
 11
-581.73757885305361
 21
2293.683298283207
 31
0.0
  0
LINE
  5
5D59
  8
0
  6
PHANTOM2
 62
     7
 10
1592.266009169273
 20
2247.9623409702308
 30
0.0
 11
1592.266009169273
 21
1293.683298283207
 31
0.0
  0
TEXT
  5
5D5A
  8
0
 62
     7
 10
344.77915865988371
 20
1318.3320587021169
 30
0.0
 40
40.0
  1
1000 min CLEARANCE
  7
TITLE3
  0
TEXT
  5
5D5B
  8
0
 62
     7
 10
-507.57084971936558
 20
2723.2040730983608
 30
0.0
 40
40.0
  1
500 min CLEARANCE
 50
90.0
  7
TITLE3
  0
TEXT
  5
5D5E
  8
0
 62
     7
 10
377.50340013990808
 20
393.4871914791828
 30
0.0
 40
62.999999998424997
  1
OPA330RKTH
  7
TITLE5
 72
     1
 11
676.00340013244556
 21
393.4871914791828
 31
0.0
  0
LINE
  5
5D5F
  8
0
 62
     7
 10
-81.733990830727066
 20
3757.6832982832079
 30
0.0
 11
1592.266009169273
 21
3757.6832982832102
 31
0.0
  0
LINE
  5
5D6C
  8
0
 62
     7
 10
-81.733990830727066
 20
3757.6832982832079
 30
0.0
 11
-81.733990830727066
 21
2293.683298283207
 31
0.0
  0
LINE
  5
5D6D
  8
0
 62
     7
 10
1651.266009169271
 20
3669.6832982832088
 30
0.0
 11
1651.266009169271
 21
3244.6832982832079
 31
0.0
  0
LINE
  5
5D6E
  8
0
  6
PHANTOM2
 62
     7
 10
4120.3922203954289
 20
2996.1671762319402
 30
0.0
 11
2656.3922203954298
 21
2996.1671762319402
 31
0.0
  0
TEXT
  5
5D6F
  8
0
 62
     7
 10
3034.9315875309721
 20
2906.2558551571992
 30
0.0
 40
40.0
  1
2000 min CLEARANCE
  7
TITLE3
  0
LINE
  5
5D72
  8
0
  6
PHANTOM2
 62
     7
 10
4120.3922203954289
 20
1030.179286891215
 30
0.0
 11
4120.3922203954289
 21
2996.1671762319402
 31
0.0
  0
LINE
  5
5D73
  8
0
  6
PHANTOM2
 62
     7
 10
2656.3922203954298
 20
1030.2434155553881
 30
0.0
 11
2656.3922203954298
 21
2996.1671762319402
 31
0.0
  0
LINE
  5
5D7B
  8
0
 62
     7
 10
1507.1434873176011
 20
3424.0538641351518
 30
0.0
 11
1467.843487317602
 21
3463.3538641351538
 31
0.0
  0
LINE
  5
5D7C
  8
0
 62
     7
 10
1507.1434873176011
 20
3448.6538641351522
 30
0.0
 11
1507.1434873176011
 21
3424.0538641351518
 31
0.0
  0
LINE
  5
5D7D
  8
0
 62
     7
 10
1562.643487317602
 20
3478.0538641351518
 30
0.0
 11
1507.1434873176011
 21
3478.0538641351518
 31
0.0
  0
LINE
  5
5D7E
  8
0
 62
     7
 10
1562.643487317602
 20
3448.6538641351522
 30
0.0
 11
1507.1434873176011
 21
3448.6538641351522
 31
0.0
  0
LINE
  5
5D7F
  8
0
 62
     7
 10
1562.643487317602
 20
3448.6538641351522
 30
0.0
 11
1562.643487317602
 21
3478.0538641351518
 31
0.0
  0
LINE
  5
5D80
  8
0
 62
     7
 10
1507.1434873176011
 20
3478.0538641351518
 30
0.0
 11
1507.1434873176011
 21
3502.6538641351508
 31
0.0
  0
LINE
  5
5D81
  8
0
 62
     7
 10
1507.1434873176011
 20
3502.6538641351508
 30
0.0
 11
1467.843487317602
 21
3463.3538641351538
 31
0.0
  0
TEXT
  5
5F1D
  8
0
 62
     7
 10
4704.9880179147831
 20
177.14477866875109
 30
0.0
 40
48.0
  1
available on request
  7
TITLE3
  0
TEXT
  5
5F1E
  8
0
 62
     7
 10
4704.9880179147831
 20
259.43049295446502
 30
0.0
 40
48.0
  1
Certified dimensions
  7
TITLE3
  0
TEXT
  5
5F1F
  8
0
 62
     7
 10
4704.9880179147831
 20
341.71620724017907
 30
0.0
 40
48.0
  1
without notice or obligation.
  7
TITLE3
  0
TEXT
  5
5F20
  8
0
 62
     7
 10
4704.9880179147831
 20
424.00192152589358
 30
0.0
 40
48.0
  1
specifications at any time
  7
TITLE3
  0
TEXT
  5
5F21
  8
0
 62
     7
 10
4704.9880179147831
 20
506.28763581160803
 30
0.0
 40
48.0
  1
the right to change 
  7
TITLE3
  0
TEXT
  5
5F22
  8
0
 62
     7
 10
4704.9880179147831
 20
670.8590643830363
 30
0.0
 40
48.0
  1
NOTE
  7
TITLE3
  0
TEXT
  5
5F23
  8
0
 62
     7
 10
4704.9880179147831
 20
588.57335009732219
 30
0.0
 40
48.0
  1
The manufacturer reserves
  7
TITLE3
  0
LINE
  5
5F95
  8
0
  6
PHANTOM2
 62
     7
 10
-82.344548867999706
 20
2247.9623409702308
 30
0.0
 11
-82.344548867999706
 21
1293.683298283207
 31
0.0
  0
LINE
  5
5F96
  8
0
 62
     7
 10
-135.73399083072701
 20
-236.83572584380619
 30
0.0
 11
1645.2660091692719
 21
-236.83572584380619
 31
0.0
  0
LINE
  5
5FB0
  8
0
 62
     7
 10
-103.733990830727
 20
-246.8357258438061
 30
0.0
 11
-103.733990830727
 21
-226.83572584380619
 31
0.0
  0
LINE
  5
5FE3
  8
0
 62
     7
 10
2656.3922203954298
 20
996.16717623193836
 30
0.0
 11
4120.3922203954289
 21
996.16717623193836
 31
0.0
  0
LINE
  5
5FE6
  8
0
 62
     7
 10
2656.3922203954298
 20
996.16717623193836
 30
0.0
 11
2656.3922203954312
 21
-135.8357258438063
 31
0.0
  0
LINE
  5
5FE7
  8
0
 62
     7
 10
4120.3922203954289
 20
996.16717623193836
 30
0.0
 11
4120.3922203954289
 21
-135.8357258438063
 31
0.0
  0
LINE
  5
5FE8
  8
0
 62
     7
 10
2656.3922203954312
 20
-135.8357258438063
 30
0.0
 11
4120.3922203954289
 21
-135.8357258438063
 31
0.0
  0
LINE
  5
5FEB
  8
0
 62
     7
 10
2652.3922203954312
 20
-236.83572584380619
 30
0.0
 11
4124.3922203954298
 21
-236.83572584380619
 31
0.0
  0
LINE
  5
5FEC
  8
0
 62
     7
 10
2687.3922203954312
 20
-226.83572584380619
 30
0.0
 11
2687.3922203954312
 21
-246.8357258438063
 31
0.0
  0
TEXT
  5
61A9
  8
0
 62
     7
 10
3089.5617107839789
 20
-73.889570441908731
 30
0.0
 40
62.999999998424997
  1
OPA330RKTH
  7
TITLE5
 72
     1
 11
3388.0617107765161
 21
-73.889570441908731
 31
0.0
  0
LINE
  5
64A9
  8
0
 62
     7
 10
4120.3922203954289
 20
996.16717623193836
 30
0.0
 11
4120.3922203954289
 21
-135.8357258438063
 31
0.0
  0
LINE
  5
64AD
  8
0
 62
     7
 10
4120.3922203954289
 20
996.16717623193836
 30
0.0
 11
4120.3922203954289
 21
-135.8357258438063
 31
0.0
  0
LINE
  5
7323
  8
0
 62
     7
 10
1467.843487317602
 20
2639.6948878978042
 30
0.0
 11
1523.343487317602
 21
2639.6948878978042
 31
0.0
  0
LINE
  5
7324
  8
0
 62
     7
 10
1467.843487317602
 20
2610.2948878978018
 30
0.0
 11
1523.343487317602
 21
2610.2948878978018
 31
0.0
  0
LINE
  5
7325
  8
0
 62
     7
 10
1467.843487317602
 20
2639.6948878978042
 30
0.0
 11
1467.843487317602
 21
2610.2948878978018
 31
0.0
  0
LINE
  5
7326
  8
0
 62
     7
 10
1523.343487317602
 20
2585.6948878978042
 30
0.0
 11
1562.6434873176031
 21
2624.9948878978012
 31
0.0
  0
LINE
  5
7327
  8
0
 62
     7
 10
1523.343487317602
 20
2639.6948878978042
 30
0.0
 11
1523.343487317602
 21
2664.2948878978009
 31
0.0
  0
LINE
  5
7328
  8
0
 62
     7
 10
1523.343487317602
 20
2664.2948878978009
 30
0.0
 11
1562.6434873176031
 21
2624.9948878978012
 31
0.0
  0
LINE
  5
7329
  8
0
 62
     7
 10
1523.343487317602
 20
2610.2948878978018
 30
0.0
 11
1523.343487317602
 21
2585.6948878978042
 31
0.0
  0
LINE
  5
732A
  8
0
 62
     7
 10
1651.266009169271
 20
2819.6832982832088
 30
0.0
 11
1651.266009169271
 21
2439.683298283207
 31
0.0
  0
LINE
  5
74B7
  8
0
  6
PHANTOM2
 62
     7
 10
-82.344548867999706
 20
4757.6832982832066
 30
0.0
 11
1592.266009169273
 21
4757.6832982832066
 31
0.0
  0
LINE
  5
74B8
  8
0
  6
PHANTOM2
 62
     7
 10
1592.266009169273
 20
3803.4042555961828
 30
0.0
 11
1592.266009169273
 21
4757.6832982832066
 31
0.0
  0
TEXT
  5
74B9
  8
0
 62
     7
 10
344.77917451318172
 20
4693.034537864296
 30
0.0
 40
40.0
  1
1000 min CLEARANCE
  7
TITLE3
  0
LINE
  5
74BA
  8
0
  6
PHANTOM2
 62
     7
 10
-82.344548867999706
 20
3803.4042555961828
 30
0.0
 11
-82.344548867999706
 21
4757.6832982832066
 31
0.0
  0
LINE
  5
74E3
  8
0
 62
     7
 10
-135.7339908307269
 20
-135.8357258438063
 30
0.0
 11
-135.73399083072701
 21
-236.83572584380619
 31
0.0
  0
LINE
  5
74E5
  8
0
 62
     7
 10
1645.2660091692719
 20
-135.8357258438063
 30
0.0
 11
1645.2660091692719
 21
-236.83572584380619
 31
0.0
  0
LINE
  5
74E7
  8
0
 62
     7
 10
1613.2660091692719
 20
-246.8357258438061
 30
0.0
 11
1613.2660091692719
 21
-226.83572584380619
 31
0.0
  0
LINE
  5
74FB
  8
0
 62
     7
 10
2652.3922203954312
 20
-221.8357258438063
 30
0.0
 11
2652.3922203954312
 21
-236.83572584380619
 31
0.0
  0
LINE
  5
74FD
  8
0
 62
     7
 10
2721.3922203954312
 20
-135.8357258438063
 30
0.0
 11
2721.3922203954312
 21
-236.83572584380619
 31
0.0
  0
LINE
  5
74FF
  8
0
 62
     7
 10
4124.3922203954298
 20
-221.8357258438063
 30
0.0
 11
4124.3922203954298
 21
-236.83572584380619
 31
0.0
  0
LINE
  5
7500
  8
0
 62
     7
 10
4055.3922203954312
 20
-135.8357258438063
 30
0.0
 11
4055.3922203954312
 21
-236.83572584380619
 31
0.0
  0
LINE
  5
7502
  8
0
 62
     7
 10
4089.3922203954298
 20
-226.83572584380619
 30
0.0
 11
4089.3922203954298
 21
-246.8357258438063
 31
0.0
  0
LINE
  5
752B
  8
0
 62
     7
 10
2807.3922203954312
 20
680.16717623193904
 30
0.0
 11
2807.3922203954312
 21
275.1671762319391
 31
0.0
  0
LINE
  5
752C
  8
0
 62
     7
 10
3182.3922203954312
 20
680.16717623193904
 30
0.0
 11
3182.3922203954321
 21
275.1671762319391
 31
0.0
  0
LINE
  5
752D
  8
0
 62
     7
 10
3612.3922203954312
 20
839.16717623193836
 30
0.0
 11
3612.3922203954312
 21
69.167176231938953
 31
0.0
  0
LINE
  5
752E
  8
0
 62
     7
 10
4032.3922203954312
 20
839.16717623193881
 30
0.0
 11
4032.3922203954312
 21
69.167176231938953
 31
0.0
  0
LINE
  5
752F
  8
0
 62
     7
 10
1592.2622071676831
 20
682.16717623193904
 30
0.0
 11
1651.262207167681
 21
682.16717623193904
 31
0.0
  0
LINE
  5
7530
  8
0
 62
     7
 10
1592.262207167684
 20
275.1671762319391
 30
0.0
 11
1651.262207167684
 21
275.1671762319391
 31
0.0
  0
LINE
  5
7531
  8
0
 62
     7
 10
2807.3922203954312
 20
680.16717623193904
 30
0.0
 11
3182.3922203954312
 21
680.16717623193904
 31
0.0
  0
LINE
  5
7532
  8
0
 62
     7
 10
2807.3922203954312
 20
275.1671762319391
 30
0.0
 11
3182.3922203954312
 21
275.1671762319391
 31
0.0
  0
LINE
  5
7533
  8
0
 62
     7
 10
1592.2622071676831
 20
839.16717623193881
 30
0.0
 11
1651.262207167681
 21
839.16717623193836
 31
0.0
  0
LINE
  5
7534
  8
0
 62
     7
 10
1592.262207167684
 20
67.167176231938967
 30
0.0
 11
1651.262207167684
 21
67.167176231938967
 31
0.0
  0
LINE
  5
7535
  8
0
 62
     7
 10
3612.3922203954312
 20
839.16717623193881
 30
0.0
 11
4032.3922203954312
 21
839.16717623193881
 31
0.0
  0
LINE
  5
7536
  8
0
 62
     7
 10
3612.3922203954312
 20
69.167176231938953
 30
0.0
 11
4032.3922203954312
 21
69.167176231938953
 31
0.0
  0
LINE
  5
7573
  8
0
 62
     7
 10
1592.266009169273
 20
2439.683298283207
 30
0.0
 11
1651.266009169271
 21
2439.683298283207
 31
0.0
  0
LINE
  5
7574
  8
0
 62
     7
 10
1592.266009169273
 20
2819.6832982832088
 30
0.0
 11
1651.266009169271
 21
2819.6832982832088
 31
0.0
  0
LINE
  5
7575
  8
0
 62
     7
 10
1592.266009169273
 20
3244.6832982832079
 30
0.0
 11
1651.266009169271
 21
3244.6832982832079
 31
0.0
  0
LINE
  5
7576
  8
0
 62
     7
 10
1592.266009169273
 20
3669.6832982832088
 30
0.0
 11
1651.266009169271
 21
3669.6832982832088
 31
0.0
  0
LINE
  5
7582
  8
0
 62
     7
 10
1645.2660091692719
 20
3761.6832982832088
 30
0.0
 11
-135.7339908307269
 21
3761.6832982832088
 31
0.0
  0
LINE
  5
7584
  8
0
 62
     7
 10
-135.7339908307269
 20
3692.6832982832079
 30
0.0
 11
-135.7339908307269
 21
3761.6832982832088
 31
0.0
  0
LINE
  5
7585
  8
0
 62
     7
 10
1645.2660091692719
 20
3692.6832982832079
 30
0.0
 11
1645.2660091692719
 21
3761.6832982832088
 31
0.0
  0
LINE
  5
7586
  8
0
 62
     7
 10
-81.733990830727066
 20
3692.6832982832079
 30
0.0
 11
-135.7339908307269
 21
3692.6832982832079
 31
0.0
  0
LINE
  5
7588
  8
0
 62
     7
 10
1645.2660091692719
 20
3692.6832982832079
 30
0.0
 11
1592.266009169273
 21
3692.6832982832079
 31
0.0
  0
LINE
  5
759C
  8
0
 62
     7
 10
1645.2660091692719
 20
2289.683298283207
 30
0.0
 11
-135.7339908307269
 21
2289.683298283207
 31
0.0
  0
LINE
  5
759D
  8
0
 62
     7
 10
-135.7339908307269
 20
2358.6832982832061
 30
0.0
 11
-135.7339908307269
 21
2289.683298283207
 31
0.0
  0
LINE
  5
759E
  8
0
 62
     7
 10
1645.2660091692719
 20
2358.683298283207
 30
0.0
 11
1645.2660091692719
 21
2289.683298283207
 31
0.0
  0
LINE
  5
759F
  8
0
 62
     7
 10
-81.733990830727066
 20
2358.6832982832061
 30
0.0
 11
-135.7339908307269
 21
2358.6832982832061
 31
0.0
  0
LINE
  5
75A0
  8
0
 62
     7
 10
1645.2660091692719
 20
2358.683298283207
 30
0.0
 11
1592.266009169273
 21
2358.683298283207
 31
0.0
  0
CIRCLE
  5
75A4
  8
0
 62
     7
 10
-103.733990830727
 20
3726.6832982832088
 30
0.0
 40
8.0
  0
CIRCLE
  5
75A5
  8
0
 62
     7
 10
-103.733990830727
 20
2324.6832982832061
 30
0.0
 40
8.0
  0
CIRCLE
  5
75A6
  8
0
 62
     7
 10
1613.2660091692719
 20
3726.6832982832088
 30
0.0
 40
8.0
  0
CIRCLE
  5
75A7
  8
0
 62
     7
 10
1613.2660091692719
 20
2324.6832982832061
 30
0.0
 40
8.0
  0
TEXT
  5
75A9
  8
0
 62
     7
 10
629.28263236729572
 20
3066.3720181192512
 30
0.0
 40
62.999999998424997
  1
OPA330RKTH
  7
TITLE5
 72
     1
 11
927.78263235983309
 21
3066.3720181192512
 31
0.0
  0
LINE
  5
775D
  8
0
 62
     7
 10
-135.73399083072701
 20
-263.50239251047287
 30
0.0
 11
-135.73399083072701
 21
-415.90636577734972
 31
0.0
  0
LINE
  5
775E
  8
0
 62
     7
 10
1645.2660091692719
 20
-263.50239251047287
 30
0.0
 11
1645.2660091692719
 21
-415.90636577734972
 31
0.0
  0
LINE
  5
775F
  8
0
 62
     7
 10
-95.733990830727024
 20
-389.23969911068349
 30
0.0
 11
565.59934250260585
 21
-389.23969911068349
 31
0.0
  0
LINE
  5
7760
  8
0
 62
     7
 10
1605.2660091692719
 20
-389.23969911068349
 30
0.0
 11
838.93267583593899
 21
-389.23969911068349
 31
0.0
  0
SOLID
  5
7761
  8
0
 62
     7
 10
-95.733990830727024
 20
-382.5730324440168
 30
0.0
 11
-95.733990830727024
 21
-395.90636577735017
 31
0.0
 12
-135.73399083072701
 22
-389.23969911068349
 32
0.0
 13
-135.73399083072701
 23
-389.23969911068349
 33
0.0
  0
SOLID
  5
7762
  8
0
 62
     7
 10
1605.2660091692719
 20
-382.5730324440168
 30
0.0
 11
1605.2660091692719
 21
-395.90636577735017
 31
0.0
 12
1645.2660091692719
 22
-389.23969911068349
 32
0.0
 13
1645.2660091692719
 23
-389.23969911068349
 33
0.0
  0
LINE
  5
7764
  8
0
 62
     7
 10
-103.733990830727
 20
-273.5023925104727
 30
0.0
 11
-103.733990830727
 21
-336.97119565418723
 31
0.0
  0
LINE
  5
7765
  8
0
 62
     7
 10
-135.73399083072701
 20
-263.50239251047287
 30
0.0
 11
-135.73399083072701
 21
-336.97119565418723
 31
0.0
  0
LINE
  5
7766
  8
0
 62
     7
 10
-63.733990830727031
 20
-310.30452898752111
 30
0.0
 11
-23.733990830727009
 21
-310.30452898752111
 31
0.0
  0
LINE
  5
7767
  8
0
 62
     7
 10
-175.73399083072701
 20
-310.30452898752111
 30
0.0
 11
-215.73399083072701
 21
-310.30452898752111
 31
0.0
  0
SOLID
  5
7768
  8
0
 62
     7
 10
-63.733990830727031
 20
-303.63786232085408
 30
0.0
 11
-63.733990830727031
 21
-316.9711956541874
 31
0.0
 12
-103.733990830727
 22
-310.30452898752111
 32
0.0
 13
-103.733990830727
 23
-310.30452898752111
 33
0.0
  0
SOLID
  5
7769
  8
0
 62
     7
 10
-175.73399083072701
 20
-303.63786232085408
 30
0.0
 11
-175.73399083072701
 21
-316.9711956541874
 31
0.0
 12
-135.73399083072701
 22
-310.30452898752111
 32
0.0
 13
-135.73399083072701
 23
-310.30452898752111
 33
0.0
  0
LINE
  5
776B
  8
0
 62
     7
 10
-103.733990830727
 20
-273.5023925104727
 30
0.0
 11
-103.733990830727
 21
-336.06003031927918
 31
0.0
  0
LINE
  5
776C
  8
0
 62
     7
 10
1613.2660091692719
 20
-273.5023925104727
 30
0.0
 11
1613.2660091692719
 21
-336.06003031927918
 31
0.0
  0
LINE
  5
776D
  8
0
 62
     7
 10
-63.733990830727031
 20
-309.39336365261249
 30
0.0
 11
555.59934250260585
 21
-309.39336365261249
 31
0.0
  0
LINE
  5
776E
  8
0
 62
     7
 10
1573.2660091692719
 20
-309.39336365261249
 30
0.0
 11
848.93267583593934
 21
-309.39336365261249
 31
0.0
  0
SOLID
  5
776F
  8
0
 62
     7
 10
-63.733990830727031
 20
-302.72669698594581
 30
0.0
 11
-63.733990830727031
 21
-316.06003031927918
 31
0.0
 12
-103.733990830727
 22
-309.39336365261249
 32
0.0
 13
-103.733990830727
 23
-309.39336365261249
 33
0.0
  0
SOLID
  5
7770
  8
0
 62
     7
 10
1573.2660091692719
 20
-302.72669698594581
 30
0.0
 11
1573.2660091692719
 21
-316.06003031927918
 31
0.0
 12
1613.2660091692719
 22
-309.39336365261249
 32
0.0
 13
1613.2660091692719
 23
-309.39336365261249
 33
0.0
  0
LINE
  5
7779
  8
0
 62
     7
 10
2687.3922203954312
 20
-273.50239251047287
 30
0.0
 11
2687.3922203954312
 21
-335.62754590170567
 31
0.0
  0
LINE
  5
777A
  8
0
 62
     7
 10
2652.3922203954312
 20
-263.50239251047287
 30
0.0
 11
2652.3922203954312
 21
-335.62754590170567
 31
0.0
  0
LINE
  5
777B
  8
0
 62
     7
 10
2727.3922203954321
 20
-308.96087923503922
 30
0.0
 11
2767.3922203954312
 21
-308.96087923503922
 31
0.0
  0
LINE
  5
777C
  8
0
 62
     7
 10
2612.3922203954312
 20
-308.96087923503922
 30
0.0
 11
2572.3922203954312
 21
-308.96087923503922
 31
0.0
  0
SOLID
  5
777D
  8
0
 62
     7
 10
2727.3922203954321
 20
-302.2942125683723
 30
0.0
 11
2727.3922203954321
 21
-315.62754590170567
 31
0.0
 12
2687.3922203954312
 22
-308.96087923503922
 32
0.0
 13
2687.3922203954312
 23
-308.96087923503922
 33
0.0
  0
SOLID
  5
777E
  8
0
 62
     7
 10
2612.3922203954312
 20
-302.2942125683723
 30
0.0
 11
2612.3922203954312
 21
-315.62754590170567
 31
0.0
 12
2652.3922203954312
 22
-308.96087923503922
 32
0.0
 13
2652.3922203954312
 23
-308.96087923503922
 33
0.0
  0
LINE
  5
7780
  8
0
 62
     7
 10
2687.3922203954312
 20
-273.50239251047287
 30
0.0
 11
2687.3922203954312
 21
-334.92055358612959
 31
0.0
  0
LINE
  5
7781
  8
0
 62
     7
 10
4089.3922203954298
 20
-273.50239251047287
 30
0.0
 11
4089.3922203954298
 21
-334.92055358612959
 31
0.0
  0
LINE
  5
7782
  8
0
 62
     7
 10
2727.3922203954321
 20
-308.25388691946318
 30
0.0
 11
3239.2255537287651
 21
-308.25388691946318
 31
0.0
  0
LINE
  5
7783
  8
0
 62
     7
 10
4049.3922203954298
 20
-308.25388691946318
 30
0.0
 11
3537.5588870620991
 21
-308.25388691946318
 31
0.0
  0
SOLID
  5
7784
  8
0
 62
     7
 10
2727.3922203954321
 20
-301.58722025279621
 30
0.0
 11
2727.3922203954321
 21
-314.9205535861297
 31
0.0
 12
2687.3922203954312
 22
-308.25388691946318
 32
0.0
 13
2687.3922203954312
 23
-308.25388691946318
 33
0.0
  0
SOLID
  5
7785
  8
0
 62
     7
 10
4049.3922203954298
 20
-301.58722025279621
 30
0.0
 11
4049.3922203954298
 21
-314.9205535861297
 31
0.0
 12
4089.3922203954298
 22
-308.25388691946318
 32
0.0
 13
4089.3922203954298
 23
-308.25388691946318
 33
0.0
  0
LINE
  5
7787
  8
0
 62
     7
 10
2652.3922203954312
 20
-263.50239251047287
 30
0.0
 11
2652.3922203954312
 21
-416.11044032292961
 31
0.0
  0
LINE
  5
7788
  8
0
 62
     7
 10
4124.3922203954298
 20
-263.50239251047287
 30
0.0
 11
4124.3922203954298
 21
-416.11044032292961
 31
0.0
  0
LINE
  5
7789
  8
0
 62
     7
 10
2692.3922203954321
 20
-389.4437736562632
 30
0.0
 11
3251.7255537287651
 21
-389.4437736562632
 31
0.0
  0
LINE
  5
778A
  8
0
 62
     7
 10
4084.3922203954312
 20
-389.4437736562632
 30
0.0
 11
3525.0588870620982
 21
-389.4437736562632
 31
0.0
  0
SOLID
  5
778B
  8
0
 62
     7
 10
2692.3922203954321
 20
-382.77710698959658
 30
0.0
 11
2692.3922203954321
 21
-396.11044032292972
 31
0.0
 12
2652.3922203954312
 22
-389.4437736562632
 32
0.0
 13
2652.3922203954312
 23
-389.4437736562632
 33
0.0
  0
SOLID
  5
778C
  8
0
 62
     7
 10
4084.3922203954312
 20
-382.77710698959658
 30
0.0
 11
4084.3922203954312
 21
-396.11044032292972
 31
0.0
 12
4124.3922203954298
 22
-389.4437736562632
 32
0.0
 13
4124.3922203954298
 23
-389.4437736562632
 33
0.0
  0
LINE
  5
778E
  8
0
 62
     7
 10
-81.733990830727123
 20
-109.1690591771397
 30
0.0
 11
-81.733990830727123
 21
-35.909950907747209
 31
0.0
  0
LINE
  5
778F
  8
0
 62
     7
 10
-135.7339908307269
 20
-109.1690591771397
 30
0.0
 11
-135.7339908307269
 21
-35.909950907747209
 31
0.0
  0
LINE
  5
7790
  8
0
 62
     7
 10
-41.733990830727123
 20
-62.576617574413717
 30
0.0
 11
-1.733990830727079
 21
-62.576617574413717
 31
0.0
  0
LINE
  5
7791
  8
0
 62
     7
 10
-175.7339908307269
 20
-62.576617574413717
 30
0.0
 11
-215.7339908307269
 21
-62.576617574413717
 31
0.0
  0
SOLID
  5
7792
  8
0
 62
     7
 10
-41.733990830727123
 20
-55.909950907747202
 30
0.0
 11
-41.733990830727123
 21
-69.24328424108046
 31
0.0
 12
-81.733990830727123
 22
-62.576617574413717
 32
0.0
 13
-81.733990830727123
 23
-62.576617574413717
 33
0.0
  0
SOLID
  5
7793
  8
0
 62
     7
 10
-175.7339908307269
 20
-55.909950907747202
 30
0.0
 11
-175.7339908307269
 21
-69.24328424108046
 31
0.0
 12
-135.7339908307269
 22
-62.576617574413717
 32
0.0
 13
-135.7339908307269
 23
-62.576617574413717
 33
0.0
  0
LINE
  5
798B
  8
0
 62
     7
 10
2656.3922203954312
 20
-109.1690591771396
 30
0.0
 11
2656.3922203954312
 21
-72.889047311741564
 31
0.0
  0
LINE
  5
798C
  8
0
 62
     7
 10
2652.3922203954312
 20
-195.1690591771395
 30
0.0
 11
2652.3922203954312
 21
-72.889047311741564
 31
0.0
  0
LINE
  5
798D
  8
0
 62
     7
 10
2696.3922203954312
 20
-99.555713978408221
 30
0.0
 11
2736.3922203954321
 21
-99.555713978408221
 31
0.0
  0
LINE
  5
798E
  8
0
 62
     7
 10
2612.3922203954312
 20
-99.555713978408221
 30
0.0
 11
2572.3922203954312
 21
-99.555713978408221
 31
0.0
  0
SOLID
  5
798F
  8
0
 62
     7
 10
2696.3922203954312
 20
-92.889047311741422
 30
0.0
 11
2696.3922203954312
 21
-106.22238064507479
 31
0.0
 12
2656.3922203954312
 22
-99.555713978408221
 32
0.0
 13
2656.3922203954312
 23
-99.555713978408221
 33
0.0
  0
SOLID
  5
7990
  8
0
 62
     7
 10
2612.3922203954312
 20
-92.889047311741422
 30
0.0
 11
2612.3922203954312
 21
-106.22238064507479
 31
0.0
 12
2652.3922203954312
 22
-99.555713978408221
 32
0.0
 13
2652.3922203954312
 23
-99.555713978408221
 33
0.0
  0
TEXT
  5
79D4
  8
0
 62
     7
 10
2755.948034617848
 20
-114.55571397840821
 30
0.0
 40
30.0
  1
4
  0
TEXT
  5
79E0
  8
0
 62
     7
 10
-292.40065749739358
 20
-77.576617574413817
 30
0.0
 40
30.0
  1
54
  0
TEXT
  5
79E1
  8
0
 62
     7
 10
3278.3922203954298
 20
-404.44377365626309
 30
0.0
 40
30.0
  1
1472 O/A
  0
TEXT
  5
79E2
  8
0
 62
     7
 10
3265.8922203954312
 20
-323.25388691946318
 30
0.0
 40
30.0
  1
1402 CTRS
  0
TEXT
  5
79E3
  8
0
 62
     7
 10
2495.7255537287642
 20
-323.96087923503922
 30
0.0
 40
30.0
  1
35
  0
TEXT
  5
79E5
  8
0
 62
     7
 10
582.26600916927225
 20
-324.39336365261249
 30
0.0
 40
30.0
  1
1717 CTRS
  0
TEXT
  5
79E6
  8
0
 62
     7
 10
-292.40065749739358
 20
-325.30452898752083
 30
0.0
 40
30.0
  1
32
  0
TEXT
  5
79E7
  8
0
 62
     7
 10
592.26600916927225
 20
-404.23969911068338
 30
0.0
 40
30.0
  1
1781 O/A
  0
LINE
  5
7D44
  8
0
 62
     7
 10
145.22792211059081
 20
1098.167176231944
 30
0.0
 11
70.519546223007495
 21
1088.475896360146
 31
0.0
  0
LINE
  5
7D45
  8
0
 62
     7
 10
32.660411591013798
 20
996.16717623193756
 30
0.0
 11
57.600808344590391
 21
1078.7032150660921
 31
0.0
  0
ARC
  5
7D46
  8
0
 62
     7
 10
71.243241957083313
 20
1074.094093118392
 30
0.0
 40
14.4
 50
92.880707351706604
 51
161.33236320096941
  0
LINE
  5
7D47
  8
0
 62
     7
 10
532.5329292599364
 20
1097.35378602848
 30
0.0
 11
489.8491792216073
 21
1082.364667970076
 31
0.0
  0
LINE
  5
7D48
  8
0
 62
     7
 10
370.78410986534948
 20
1087.1646679700759
 30
0.0
 11
311.74790847319628
 21
1087.164667970075
 31
0.0
  0
LINE
  5
7D49
  8
0
 62
     7
 10
390.49777233561753
 20
1075.164667970075
 30
0.0
 11
292.03424600292749
 21
1075.164667970075
 31
0.0
  0
ARC
  5
7D4A
  8
0
 62
     7
 10
145.2279221105936
 20
1083.767176231946
 30
0.0
 40
14.4
 50
70.650415913283112
 51
90.0
  0
LINE
  5
7D4B
  8
0
 62
     7
 10
292.03424600292749
 20
1082.3646679700739
 30
0.0
 11
292.03424600292749
 21
1075.164667970075
 31
0.0
  0
LINE
  5
7D4C
  8
0
 62
     7
 10
292.03424600292749
 20
1082.3646679700739
 30
0.0
 11
192.6828391169397
 21
1082.364667970076
 31
0.0
  0
LINE
  5
7D4D
  8
0
 62
     7
 10
149.9990890786041
 20
1097.35378602848
 30
0.0
 11
192.6828391169397
 21
1082.364667970076
 31
0.0
  0
LINE
  5
7D4E
  8
0
 62
     7
 10
311.74790847319628
 20
1075.164667970075
 30
0.0
 11
311.74790847319628
 21
1087.164667970075
 31
0.0
  0
LINE
  5
7D4F
  8
0
 62
     7
 10
370.78410986534948
 20
1075.164667970075
 30
0.0
 11
370.78410986534948
 21
1087.1646679700759
 31
0.0
  0
LINE
  5
7D50
  8
0
 62
     7
 10
390.49777233561753
 20
1082.3646679700739
 30
0.0
 11
489.8491792216073
 21
1082.364667970076
 31
0.0
  0
LINE
  5
7D51
  8
0
 62
     7
 10
390.49777233561753
 20
1082.3646679700739
 30
0.0
 11
390.49777233561753
 21
1075.164667970075
 31
0.0
  0
ARC
  5
7D52
  8
0
 62
     7
 10
611.28877638146128
 20
1074.094093118392
 30
0.0
 40
14.4
 50
18.667636799030561
 51
87.119292648293396
  0
LINE
  5
7D53
  8
0
 62
     7
 10
649.87160674752965
 20
996.16717623193802
 30
0.0
 11
624.93120999395535
 21
1078.7032150660921
 31
0.0
  0
LINE
  5
7D54
  8
0
 62
     7
 10
537.3040962279531
 20
1098.167176231944
 30
0.0
 11
612.01247211553755
 21
1088.475896360146
 31
0.0
  0
ARC
  5
7D55
  8
0
 62
     7
 10
537.30409622795139
 20
1083.767176231946
 30
0.0
 40
14.4
 50
90.0
 51
109.3495840867169
  0
CIRCLE
  5
8083
  8
0
 62
     7
 10
341.26600916927282
 20
3390.6832982832088
 30
0.0
 40
308.0
  0
CIRCLE
  5
8084
  8
0
 62
     7
 10
341.26600916927282
 20
2720.6832982832079
 30
0.0
 40
308.0
  0
LINE
  5
808A
  8
0
 62
     7
 10
2887.3541333367498
 20
1098.167176231944
 30
0.0
 11
2817.6457574491669
 21
1088.475896360146
 31
0.0
  0
LINE
  5
808B
  8
0
 62
     7
 10
2779.7866228171729
 20
996.16717623193881
 30
0.0
 11
2804.7270195707479
 21
1078.7032150660921
 31
0.0
  0
ARC
  5
808C
  8
0
 62
     7
 10
2818.3694531832411
 20
1074.094093118392
 30
0.0
 40
14.4
 50
92.880707351706491
 51
161.33236320096941
  0
LINE
  5
808D
  8
0
 62
     7
 10
3274.6591404860942
 20
1097.35378602848
 30
0.0
 11
3231.9753904477652
 21
1082.364667970076
 31
0.0
  0
LINE
  5
808E
  8
0
 62
     7
 10
3112.9103210915068
 20
1087.1646679700759
 30
0.0
 11
3053.8741196993551
 21
1087.164667970075
 31
0.0
  0
LINE
  5
808F
  8
0
 62
     7
 10
3132.6239835617748
 20
1075.164667970075
 30
0.0
 11
3034.1604572290871
 21
1075.164667970075
 31
0.0
  0
ARC
  5
8090
  8
0
 62
     7
 10
2887.3541333367511
 20
1083.767176231946
 30
0.0
 40
14.4
 50
70.650415913283382
 51
90.0
  0
LINE
  5
8091
  8
0
 62
     7
 10
3034.1604572290871
 20
1082.3646679700739
 30
0.0
 11
3034.1604572290871
 21
1075.164667970075
 31
0.0
  0
LINE
  5
8092
  8
0
 62
     7
 10
3034.1604572290871
 20
1082.3646679700739
 30
0.0
 11
2934.8090503430981
 21
1082.364667970076
 31
0.0
  0
LINE
  5
8093
  8
0
 62
     7
 10
2892.1253003047609
 20
1097.35378602848
 30
0.0
 11
2934.8090503430981
 21
1082.364667970076
 31
0.0
  0
LINE
  5
8094
  8
0
 62
     7
 10
3053.8741196993551
 20
1075.164667970075
 30
0.0
 11
3053.8741196993551
 21
1087.164667970075
 31
0.0
  0
LINE
  5
8095
  8
0
 62
     7
 10
3112.9103210915068
 20
1075.164667970075
 30
0.0
 11
3112.9103210915068
 21
1087.1646679700759
 31
0.0
  0
LINE
  5
8096
  8
0
 62
     7
 10
3132.6239835617748
 20
1082.3646679700739
 30
0.0
 11
3231.9753904477652
 21
1082.364667970076
 31
0.0
  0
LINE
  5
8097
  8
0
 62
     7
 10
3132.6239835617748
 20
1082.3646679700739
 30
0.0
 11
3132.6239835617748
 21
1075.164667970075
 31
0.0
  0
ARC
  5
8098
  8
0
 62
     7
 10
3353.4149876076208
 20
1074.094093118392
 30
0.0
 40
14.4
 50
18.667636799030561
 51
87.119292648293495
  0
LINE
  5
8099
  8
0
 62
     7
 10
3391.9978179736868
 20
996.16717623193836
 30
0.0
 11
3367.0574212201141
 21
1078.7032150660921
 31
0.0
  0
LINE
  5
809A
  8
0
 62
     7
 10
3279.4303074541122
 20
1098.167176231944
 30
0.0
 11
3354.138683341695
 21
1088.475896360146
 31
0.0
  0
ARC
  5
809B
  8
0
 62
     7
 10
3279.4303074541099
 20
1083.767176231946
 30
0.0
 40
14.4
 50
90.0
 51
109.3495840867166
  0
LINE
  5
809C
  8
0
 62
     7
 10
3557.3541333367498
 20
1098.167176231944
 30
0.0
 11
3482.645757449166
 21
1088.475896360146
 31
0.0
  0
LINE
  5
809D
  8
0
 62
     7
 10
3444.7866228171729
 20
996.16717623193881
 30
0.0
 11
3469.7270195707488
 21
1078.7032150660921
 31
0.0
  0
ARC
  5
809E
  8
0
 62
     7
 10
3483.3694531832421
 20
1074.094093118392
 30
0.0
 40
14.4
 50
92.880707351706491
 51
161.33236320096941
  0
LINE
  5
809F
  8
0
 62
     7
 10
3944.6591404860951
 20
1097.35378602848
 30
0.0
 11
3901.9753904477652
 21
1082.364667970076
 31
0.0
  0
LINE
  5
80A0
  8
0
 62
     7
 10
3782.9103210915059
 20
1087.1646679700759
 30
0.0
 11
3723.8741196993551
 21
1087.164667970075
 31
0.0
  0
LINE
  5
80A1
  8
0
 62
     7
 10
3802.6239835617748
 20
1075.164667970075
 30
0.0
 11
3704.1604572290848
 21
1075.164667970075
 31
0.0
  0
ARC
  5
80A2
  8
0
 62
     7
 10
3557.3541333367511
 20
1083.767176231946
 30
0.0
 40
14.4
 50
70.650415913283382
 51
90.0
  0
LINE
  5
80A3
  8
0
 62
     7
 10
3704.1604572290848
 20
1082.3646679700739
 30
0.0
 11
3704.1604572290848
 21
1075.164667970075
 31
0.0
  0
LINE
  5
80A4
  8
0
 62
     7
 10
3704.1604572290848
 20
1082.3646679700739
 30
0.0
 11
3609.8090503430972
 21
1082.364667970076
 31
0.0
  0
LINE
  5
80A5
  8
0
 62
     7
 10
3562.1253003047641
 20
1097.35378602848
 30
0.0
 11
3609.8090503430972
 21
1082.364667970076
 31
0.0
  0
LINE
  5
80A6
  8
0
 62
     7
 10
3723.8741196993551
 20
1075.164667970075
 30
0.0
 11
3723.8741196993551
 21
1087.164667970075
 31
0.0
  0
LINE
  5
80A7
  8
0
 62
     7
 10
3782.9103210915059
 20
1075.164667970075
 30
0.0
 11
3782.9103210915059
 21
1087.1646679700759
 31
0.0
  0
LINE
  5
80A8
  8
0
 62
     7
 10
3802.6239835617748
 20
1082.3646679700739
 30
0.0
 11
3901.9753904477652
 21
1082.364667970076
 31
0.0
  0
LINE
  5
80A9
  8
0
 62
     7
 10
3802.6239835617748
 20
1082.3646679700739
 30
0.0
 11
3802.6239835617748
 21
1075.164667970075
 31
0.0
  0
ARC
  5
80AA
  8
0
 62
     7
 10
4023.4149876076199
 20
1074.094093118392
 30
0.0
 40
14.4
 50
18.667636799030561
 51
87.119292648293495
  0
LINE
  5
80AB
  8
0
 62
     7
 10
4061.9978179736868
 20
996.16717623193836
 30
0.0
 11
4037.0574212201132
 21
1078.7032150660921
 31
0.0
  0
LINE
  5
80AC
  8
0
 62
     7
 10
3949.4303074541122
 20
1098.167176231944
 30
0.0
 11
4024.138683341695
 21
1088.475896360146
 31
0.0
  0
ARC
  5
80AD
  8
0
 62
     7
 10
3949.4303074541099
 20
1083.767176231946
 30
0.0
 40
14.4
 50
90.0
 51
109.3495840867166
  0
LINE
  5
8454
  8
0
 62
     7
 10
118.5612554439241
 20
1098.167176231944
 30
0.0
 11
-350.87916282553277
 21
1098.167176231944
 31
0.0
  0
LINE
  5
8455
  8
0
 62
     7
 10
-162.40065749739361
 20
-236.83572584380619
 30
0.0
 11
-350.87916282553317
 21
-236.8357258438061
 31
0.0
  0
LINE
  5
8456
  8
0
 62
     7
 10
-324.2124961588662
 20
1058.167176231944
 30
0.0
 11
-324.21249615886637
 21
567.33239186073558
 31
0.0
  0
LINE
  5
8457
  8
0
 62
     7
 10
-324.2124961588666
 20
-196.8357258438061
 30
0.0
 11
-324.21249615886637
 21
293.99905852740238
 31
0.0
  0
SOLID
  5
8458
  8
0
 62
     7
 10
-330.87916282553289
 20
1058.167176231944
 30
0.0
 11
-317.54582949219957
 21
1058.167176231944
 31
0.0
 12
-324.2124961588662
 22
1098.167176231944
 32
0.0
 13
-324.2124961588662
 23
1098.167176231944
 33
0.0
  0
SOLID
  5
8459
  8
0
 62
     7
 10
-330.87916282553317
 20
-196.8357258438061
 30
0.0
 11
-317.54582949219991
 21
-196.8357258438061
 31
0.0
 12
-324.2124961588666
 22
-236.8357258438061
 32
0.0
 13
-324.2124961588666
 23
-236.8357258438061
 33
0.0
  0
LINE
  5
87A0
  8
0
 62
     7
 10
-81.733990830727066
 20
1022.833842898604
 30
0.0
 11
-81.733990830727066
 21
1209.4047430096271
 31
0.0
  0
LINE
  5
87A1
  8
0
 62
     7
 10
1651.262207167681
 20
865.83384289860555
 30
0.0
 11
1651.262207167681
 21
1209.4047430096271
 31
0.0
  0
LINE
  5
87A2
  8
0
 62
     7
 10
-41.733990830727052
 20
1182.7380763429601
 30
0.0
 11
708.09744150181007
 21
1182.7380763429601
 31
0.0
  0
LINE
  5
87A3
  8
0
 62
     7
 10
1611.262207167681
 20
1182.7380763429601
 30
0.0
 11
861.43077483514344
 21
1182.7380763429601
 31
0.0
  0
SOLID
  5
87A4
  8
0
 62
     7
 10
-41.733990830727052
 20
1189.4047430096271
 30
0.0
 11
-41.733990830727052
 21
1176.071409676292
 31
0.0
 12
-81.733990830727066
 22
1182.7380763429601
 32
0.0
 13
-81.733990830727066
 23
1182.7380763429601
 33
0.0
  0
SOLID
  5
87A5
  8
0
 62
     7
 10
1611.262207167681
 20
1189.4047430096271
 30
0.0
 11
1611.262207167681
 21
1176.071409676292
 31
0.0
 12
1651.262207167681
 22
1182.7380763429601
 32
0.0
 13
1651.262207167681
 23
1182.7380763429601
 33
0.0
  0
LINE
  5
87A7
  8
0
 62
     7
 10
2807.3922203954312
 20
706.83384289860567
 30
0.0
 11
2807.3922203954312
 21
1209.4047430096259
 31
0.0
  0
LINE
  5
87A8
  8
0
 62
     7
 10
2656.3922203954298
 20
1022.833842898605
 30
0.0
 11
2656.3922203954298
 21
1209.4047430096271
 31
0.0
  0
LINE
  5
87A9
  8
0
 62
     7
 10
2767.3922203954312
 20
1182.7380763429601
 30
0.0
 11
2696.3922203954289
 21
1182.7380763429601
 31
0.0
  0
LINE
  5
87AA
  8
0
 62
     7
 10
2656.3922203954298
 20
1182.7380763429601
 30
0.0
 11
2616.3922203954289
 21
1182.7380763429601
 31
0.0
  0
SOLID
  5
87AB
  8
0
 62
     7
 10
2767.3922203954312
 20
1189.4047430096271
 30
0.0
 11
2767.3922203954312
 21
1176.071409676292
 31
0.0
 12
2807.3922203954312
 22
1182.7380763429601
 32
0.0
 13
2807.3922203954312
 23
1182.7380763429601
 33
0.0
  0
SOLID
  5
87AC
  8
0
 62
     7
 10
2696.3922203954289
 20
1189.4047430096271
 30
0.0
 11
2696.3922203954289
 21
1176.071409676292
 31
0.0
 12
2656.3922203954298
 22
1182.7380763429601
 32
0.0
 13
2656.3922203954298
 23
1182.7380763429601
 33
0.0
  0
LINE
  5
87AE
  8
0
 62
     7
 10
2807.3922203954312
 20
706.83384289860567
 30
0.0
 11
2807.3922203954312
 21
1208.5291832587591
 31
0.0
  0
LINE
  5
87AF
  8
0
 62
     7
 10
3182.3922203954312
 20
706.83384289860567
 30
0.0
 11
3182.3922203954312
 21
1208.5291832587591
 31
0.0
  0
LINE
  5
87B0
  8
0
 62
     7
 10
2847.3922203954312
 20
1181.8625165920921
 30
0.0
 11
2928.2255537287651
 21
1181.8625165920921
 31
0.0
  0
LINE
  5
87B1
  8
0
 62
     7
 10
3142.3922203954312
 20
1181.8625165920921
 30
0.0
 11
3056.5588870620982
 21
1181.8625165920921
 31
0.0
  0
SOLID
  5
87B2
  8
0
 62
     7
 10
2847.3922203954312
 20
1188.5291832587591
 30
0.0
 11
2847.3922203954312
 21
1175.1958499254249
 31
0.0
 12
2807.3922203954312
 22
1181.8625165920921
 32
0.0
 13
2807.3922203954312
 23
1181.8625165920921
 33
0.0
  0
SOLID
  5
87B3
  8
0
 62
     7
 10
3142.3922203954312
 20
1188.5291832587591
 30
0.0
 11
3142.3922203954312
 21
1175.1958499254249
 31
0.0
 12
3182.3922203954312
 22
1181.8625165920921
 32
0.0
 13
3182.3922203954312
 23
1181.8625165920921
 33
0.0
  0
LINE
  5
87B5
  8
0
 62
     7
 10
3182.3922203954312
 20
706.83384289860567
 30
0.0
 11
3182.3922203954312
 21
1208.5291832587591
 31
0.0
  0
LINE
  5
87B6
  8
0
 62
     7
 10
3612.3922203954312
 20
865.83384289860555
 30
0.0
 11
3612.3922203954312
 21
1208.5291832587591
 31
0.0
  0
LINE
  5
87B7
  8
0
 62
     7
 10
3222.3922203954312
 20
1181.8625165920921
 30
0.0
 11
3328.2255537287642
 21
1181.8625165920921
 31
0.0
  0
LINE
  5
87B8
  8
0
 62
     7
 10
3567.3922203954312
 20
1181.8625165920921
 30
0.0
 11
3461.5588870620991
 21
1181.8625165920921
 31
0.0
  0
SOLID
  5
87B9
  8
0
 62
     7
 10
3222.3922203954312
 20
1188.5291832587591
 30
0.0
 11
3222.3922203954312
 21
1175.1958499254249
 31
0.0
 12
3182.3922203954312
 22
1181.8625165920921
 32
0.0
 13
3182.3922203954312
 23
1181.8625165920921
 33
0.0
  0
SOLID
  5
87BA
  8
0
 62
     7
 10
3567.3922203954312
 20
1188.5291832587591
 30
0.0
 11
3567.3922203954312
 21
1175.1958499254249
 31
0.0
 12
3612.3922203954312
 22
1181.8625165920921
 32
0.0
 13
3612.3922203954312
 23
1181.8625165920921
 33
0.0
  0
LINE
  5
87BC
  8
0
 62
     7
 10
3612.3922203954312
 20
865.83384289860555
 30
0.0
 11
3612.3922203954312
 21
1208.5291832587591
 31
0.0
  0
LINE
  5
87C3
  8
0
 62
     7
 10
2656.3922203954298
 20
1022.833842898605
 30
0.0
 11
2656.3922203954298
 21
1302.2988207603539
 31
0.0
  0
LINE
  5
87C4
  8
0
 62
     7
 10
4120.3922203954289
 20
1022.833842898605
 30
0.0
 11
4120.3922203954289
 21
1302.2988207603539
 31
0.0
  0
LINE
  5
87C5
  8
0
 62
     7
 10
2696.3922203954289
 20
1275.6321540936869
 30
0.0
 11
3296.7255537287642
 21
1275.6321540936869
 31
0.0
  0
LINE
  5
87C6
  8
0
 62
     7
 10
4080.3922203954298
 20
1275.6321540936869
 30
0.0
 11
3430.891231660602
 21
1275.6321540936869
 31
0.0
  0
SOLID
  5
87C7
  8
0
 62
     7
 10
2696.3922203954289
 20
1282.2988207603539
 30
0.0
 11
2696.3922203954289
 21
1268.96548742702
 31
0.0
 12
2656.3922203954298
 22
1275.6321540936869
 32
0.0
 13
2656.3922203954298
 23
1275.6321540936869
 33
0.0
  0
SOLID
  5
87C8
  8
0
 62
     7
 10
4080.3922203954298
 20
1282.2988207603539
 30
0.0
 11
4080.3922203954298
 21
1268.96548742702
 31
0.0
 12
4120.3922203954289
 22
1275.6321540936869
 32
0.0
 13
4120.3922203954289
 23
1275.6321540936869
 33
0.0
  0
LINE
  5
87CA
  8
0
 62
     7
 10
2780.7255537287651
 20
275.16717623193921
 30
0.0
 11
2475.928257283781
 21
275.16717623193921
 31
0.0
  0
LINE
  5
87CB
  8
0
 62
     7
 10
2625.7255537287651
 20
-236.83572584380619
 30
0.0
 11
2475.928257283781
 21
-236.8357258438061
 31
0.0
  0
LINE
  5
87CC
  8
0
 62
     7
 10
2502.594923950448
 20
235.16717623193921
 30
0.0
 11
2502.594923950448
 21
80.832391860733196
 31
0.0
  0
LINE
  5
87CD
  8
0
 62
     7
 10
2502.594923950448
 20
-196.8357258438061
 30
0.0
 11
2502.594923950448
 21
-42.500941472600118
 31
0.0
  0
SOLID
  5
87CE
  8
0
 62
     7
 10
2495.928257283781
 20
235.16717623193921
 30
0.0
 11
2509.261590617115
 21
235.16717623193921
 31
0.0
 12
2502.594923950448
 22
275.16717623193921
 32
0.0
 13
2502.594923950448
 23
275.16717623193921
 33
0.0
  0
SOLID
  5
87CF
  8
0
 62
     7
 10
2495.928257283781
 20
-196.8357258438061
 30
0.0
 11
2509.261590617115
 21
-196.8357258438061
 31
0.0
 12
2502.594923950448
 22
-236.8357258438061
 32
0.0
 13
2502.594923950448
 23
-236.8357258438061
 33
0.0
  0
LINE
  5
87D1
  8
0
 62
     7
 10
2780.7255537287651
 20
275.16717623193921
 30
0.0
 11
2475.928257283781
 21
275.16717623193921
 31
0.0
  0
LINE
  5
87D2
  8
0
 62
     7
 10
2780.7255537287651
 20
680.16717623193904
 30
0.0
 11
2475.928257283781
 21
680.16717623193904
 31
0.0
  0
LINE
  5
87D3
  8
0
 62
     7
 10
2502.594923950448
 20
315.16717623193921
 30
0.0
 11
2502.594923950448
 21
414.50050956527252
 31
0.0
  0
LINE
  5
87D4
  8
0
 62
     7
 10
2502.5949239504489
 20
640.16717623193904
 30
0.0
 11
2502.5949239504489
 21
542.83384289860578
 31
0.0
  0
SOLID
  5
87D5
  8
0
 62
     7
 10
2495.928257283781
 20
315.16717623193921
 30
0.0
 11
2509.261590617115
 21
315.16717623193921
 31
0.0
 12
2502.594923950448
 22
275.16717623193921
 32
0.0
 13
2502.594923950448
 23
275.16717623193921
 33
0.0
  0
SOLID
  5
87D6
  8
0
 62
     7
 10
2495.928257283781
 20
640.16717623193904
 30
0.0
 11
2509.261590617115
 21
640.16717623193904
 31
0.0
 12
2502.5949239504489
 22
680.16717623193904
 32
0.0
 13
2502.5949239504489
 23
680.16717623193904
 33
0.0
  0
LINE
  5
87D8
  8
0
 62
     7
 10
4059.0588870620991
 20
839.16717623193881
 30
0.0
 11
4251.811773256888
 21
839.16717623193881
 31
0.0
  0
LINE
  5
87D9
  8
0
 62
     7
 10
4059.0588870620991
 20
69.167176231938953
 30
0.0
 11
4251.811773256888
 21
69.16717623193891
 31
0.0
  0
LINE
  5
87DA
  8
0
 62
     7
 10
4225.1451065902229
 20
799.16717623193892
 30
0.0
 11
4225.1451065902229
 21
519.83384289860567
 31
0.0
  0
LINE
  5
87DB
  8
0
 62
     7
 10
4225.1451065902229
 20
109.1671762319389
 30
0.0
 11
4225.1451065902229
 21
386.5005095652723
 31
0.0
  0
SOLID
  5
87DC
  8
0
 62
     7
 10
4218.4784399235559
 20
799.16717623193892
 30
0.0
 11
4231.811773256889
 21
799.16717623193892
 31
0.0
 12
4225.1451065902229
 22
839.16717623193881
 32
0.0
 13
4225.1451065902229
 23
839.16717623193881
 33
0.0
  0
SOLID
  5
87DD
  8
0
 62
     7
 10
4218.4784399235559
 20
109.1671762319389
 30
0.0
 11
4231.811773256889
 21
109.1671762319389
 31
0.0
 12
4225.1451065902229
 22
69.16717623193891
 32
0.0
 13
4225.1451065902229
 23
69.16717623193891
 33
0.0
  0
LINE
  5
87DF
  8
0
 62
     7
 10
4059.0588870620991
 20
69.167176231938953
 30
0.0
 11
4251.5651631896653
 21
69.16717623193891
 31
0.0
  0
TEXT
  5
87E8
  8
0
 62
     7
 10
4240.145106590222
 20
413.16717623193949
 30
0.0
 40
30.0
  1
770
 50
90.0
  0
TEXT
  5
87E9
  8
0
 62
     7
 10
2517.5949239504489
 20
441.16717623193898
 30
0.0
 40
30.0
  1
405
 50
90.0
  0
TEXT
  5
87EA
  8
0
 62
     7
 10
2517.5949239504489
 20
-15.83427480593317
 30
0.0
 40
30.0
  1
512
 50
90.0
  0
TEXT
  5
87EB
  8
0
 62
     7
 10
3323.3922203954298
 20
1260.6321540936869
 30
0.0
 40
30.0
  1
1464
  0
TEXT
  5
87ED
  8
0
 62
     7
 10
3354.8922203954312
 20
1166.8625165920921
 30
0.0
 40
30.0
  1
430
  0
TEXT
  5
87EE
  8
0
 62
     7
 10
2954.8922203954312
 20
1166.8625165920921
 30
0.0
 40
30.0
  1
375
  0
TEXT
  5
87EF
  8
0
 62
     7
 10
2519.7255537287629
 20
1167.7380763429601
 30
0.0
 40
30.0
  1
151
  0
TEXT
  5
87F0
  8
0
 62
     7
 10
734.76410816847704
 20
1167.7380763429601
 30
0.0
 40
30.0
  1
1733
  0
TEXT
  5
87F1
  8
0
 62
     7
 10
-309.21249615886637
 20
320.6657251940689
 30
0.0
 40
30.0
  1
1335 O/A
 50
90.0
  0
LINE
  5
8BF0
  8
0
  6
PHANTOM2
 62
     7
 10
1592.266009169273
 20
3244.6832982832079
 30
0.0
 11
2592.2660091692751
 21
3244.6832982832079
 31
0.0
  0
LINE
  5
8BF1
  8
0
  6
PHANTOM2
 62
     7
 10
2592.2660091692751
 20
3244.6832982832088
 30
0.0
 11
2592.2660091692751
 21
2819.6832982832088
 31
0.0
  0
LINE
  5
8BF2
  8
0
  6
PHANTOM2
 62
     7
 10
2592.2660091692751
 20
2819.6832982832088
 30
0.0
 11
1592.266009169273
 21
2819.6832982832088
 31
0.0
  0
TEXT
  5
8BF3
  8
0
 62
     7
 10
1847.8701063659919
 20
3128.3240893502061
 30
0.0
 40
40.0
  1
1000 min CLEARANCE
  7
TITLE3
  0
TEXT
  5
8BF4
  8
0
 62
     7
 10
1873.843348605938
 20
3059.0887231745392
 30
0.0
 40
40.0
  1
FOR FILTER ACCESS
  7
TITLE3
  0
LINE
  5
8CB1
  8
0
 62
     7
 10
4059.0588870620968
 20
69.167176231938953
 30
0.0
 11
4251.811773256889
 21
69.16717623193891
 31
0.0
  0
LINE
  5
8CB2
  8
0
 62
     7
 10
4059.0588870620959
 20
-236.83572584380619
 30
0.0
 11
4251.811773256889
 21
-236.83572584380619
 31
0.0
  0
LINE
  5
8CB3
  8
0
 62
     7
 10
4225.1451065902229
 20
29.16717623193891
 30
0.0
 11
4225.1451065902229
 21
-19.667608139266971
 31
0.0
  0
LINE
  5
8CB4
  8
0
 62
     7
 10
4225.1451065902229
 20
-196.83572584380619
 30
0.0
 11
4225.1451065902229
 21
-148.00094147260029
 31
0.0
  0
SOLID
  5
8CB5
  8
0
 62
     7
 10
4218.4784399235559
 20
29.16717623193891
 30
0.0
 11
4231.8117732568899
 21
29.16717623193891
 31
0.0
 12
4225.1451065902229
 22
69.16717623193891
 32
0.0
 13
4225.1451065902229
 23
69.16717623193891
 33
0.0
  0
SOLID
  5
8CB6
  8
0
 62
     7
 10
4218.4784399235559
 20
-196.83572584380619
 30
0.0
 11
4231.8117732568899
 21
-196.83572584380619
 31
0.0
 12
4225.1451065902229
 22
-236.83572584380619
 32
0.0
 13
4225.1451065902229
 23
-236.83572584380619
 33
0.0
  0
INSERT
  5
8CB7
  8
0
  2
*U15
 10
0.0
 20
0.0
 30
0.0
  0
LINE
  5
8CB8
  8
0
 62
     7
 10
3612.3922203954312
 20
865.83384289860555
 30
0.0
 11
3612.3922203954312
 21
1208.5291832587591
 31
0.0
  0
LINE
  5
8CB9
  8
0
 62
     7
 10
4032.3922203954298
 20
865.83384289860555
 30
0.0
 11
4032.3922203954298
 21
1208.5291832587591
 31
0.0
  0
LINE
  5
8CBA
  8
0
 62
     7
 10
3652.3922203954312
 20
1181.8625165920921
 30
0.0
 11
3703.2255537287651
 21
1181.8625165920921
 31
0.0
  0
LINE
  5
8CBB
  8
0
 62
     7
 10
3992.3922203954298
 20
1181.8625165920921
 30
0.0
 11
3941.5588870620968
 21
1181.8625165920921
 31
0.0
  0
SOLID
  5
8CBC
  8
0
 62
     7
 10
3652.3922203954312
 20
1188.5291832587591
 30
0.0
 11
3652.3922203954312
 21
1175.1958499254249
 31
0.0
 12
3612.3922203954312
 22
1181.8625165920921
 32
0.0
 13
3612.3922203954312
 23
1181.8625165920921
 33
0.0
  0
SOLID
  5
8CBD
  8
0
 62
     7
 10
3992.3922203954298
 20
1188.5291832587591
 30
0.0
 11
3992.3922203954298
 21
1175.1958499254249
 31
0.0
 12
4032.3922203954298
 22
1181.8625165920921
 32
0.0
 13
4032.3922203954298
 23
1181.8625165920921
 33
0.0
  0
INSERT
  5
8CBE
  8
0
  2
*U16
 10
0.0
 20
0.0
 30
0.0
  0
ENDSEC
  0
EOF
